  0
SECTION
  2
HEADER
  9
$ACADVER
  1
AC1009
  9
$INSBASE
 10
47.41909670167868
 20
92.7791122796235
 30
0.0
  9
$EXTMIN
 10
47.41909670167868
 20
92.7791122796235
 30
0.0
  9
$EXTMAX
 10
270.6397882214433
 20
272.4774018615586
 30
0.0
  9
$LIMMIN
 10
0.0
 20
0.0
  9
$LIMMAX
 10
420.0
 20
297.0
  9
$ORTHOMODE
 70
     0
  9
$REGENMODE
 70
     0
  9
$FILLMODE
 70
     1
  9
$QTEXTMODE
 70
     0
  9
$MIRRTEXT
 70
     0
  9
$DRAGMODE
 70
     2
  9
$LTSCALE
 40
1.0
  9
$OSMODE
 70
     0
  9
$ATTMODE
 70
     1
  9
$TEXTSIZE
 40
3.5
  9
$TRACEWID
 40
0.1
  9
$TEXTSTYLE
  7
STANDARD
  9
$CLAYER
  8
0
  9
$CELTYPE
  6
BYLAYER
  9
$CECOLOR
 62
   256
  9
$DIMSCALE
 40
1.0
  9
$DIMASZ
 40
2.0
  9
$DIMEXO
 40
1.0
  9
$DIMDLI
 40
8.0
  9
$DIMRND
 40
0.0
  9
$DIMDLE
 40
0.0
  9
$DIMEXE
 40
2.0
  9
$DIMTP
 40
0.1
  9
$DIMTM
 40
0.1
  9
$DIMTXT
 40
3.5
  9
$DIMCEN
 40
2.0
  9
$DIMTSZ
 40
0.0
  9
$DIMTOL
 70
     0
  9
$DIMLIM
 70
     0
  9
$DIMTIH
 70
     0
  9
$DIMTOH
 70
     0
  9
$DIMSE1
 70
     0
  9
$DIMSE2
 70
     0
  9
$DIMTAD
 70
     1
  9
$DIMZIN
 70
     0
  9
$DIMBLK
  1

  9
$DIMASO
 70
     1
  9
$DIMSHO
 70
     0
  9
$DIMPOST
  1

  9
$DIMAPOST
  1

  9
$DIMALT
 70
     0
  9
$DIMALTD
 70
     2
  9
$DIMALTF
 40
25.39999999999999
  9
$DIMLFAC
 40
1.0
  9
$DIMTOFL
 70
     0
  9
$DIMTVP
 40
0.0
  9
$DIMTIX
 70
     0
  9
$DIMSOXD
 70
     0
  9
$DIMSAH
 70
     0
  9
$DIMBLK1
  1

  9
$DIMBLK2
  1

  9
$DIMSTYLE
  2
*UNNAMED
  9
$DIMCLRD
 70
     0
  9
$DIMCLRE
 70
     0
  9
$DIMCLRT
 70
     0
  9
$DIMTFAC
 40
1.0
  9
$DIMGAP
 40
0.09
  9
$LUNITS
 70
     2
  9
$LUPREC
 70
     3
  9
$SKETCHINC
 40
0.1
  9
$FILLETRAD
 40
20.0
  9
$AUNITS
 70
     0
  9
$AUPREC
 70
     1
  9
$MENU
  1

  9
$ELEVATION
 40
0.0
  9
$PELEVATION
 40
0.0
  9
$THICKNESS
 40
0.0
  9
$LIMCHECK
 70
     0
  9
$BLIPMODE
 70
     0
  9
$CHAMFERA
 40
0.0
  9
$CHAMFERB
 40
0.0
  9
$SKPOLY
 70
     1
  9
$TDCREATE
 40
2448558.520277198
  9
$TDUPDATE
 40
2449393.438162962
  9
$TDINDWG
 40
0.0012884259
  9
$TDUSRTIMER
 40
0.0012884259
  9
$USRTIMER
 70
     1
  9
$ANGBASE
 50
0.0
  9
$ANGDIR
 70
     0
  9
$PDMODE
 70
     0
  9
$PDSIZE
 40
0.0
  9
$PLINEWID
 40
0.0
  9
$COORDS
 70
     2
  9
$SPLFRAME
 70
     0
  9
$SPLINETYPE
 70
     6
  9
$SPLINESEGS
 70
     8
  9
$ATTDIA
 70
     1
  9
$ATTREQ
 70
     1
  9
$HANDLING
 70
     0
  9
$HANDSEED
  5
113
  9
$SURFTAB1
 70
     6
  9
$SURFTAB2
 70
     6
  9
$SURFTYPE
 70
     6
  9
$SURFU
 70
     6
  9
$SURFV
 70
     6
  9
$UCSNAME
  2

  9
$UCSORG
 10
0.0
 20
0.0
 30
0.0
  9
$UCSXDIR
 10
1.0
 20
0.0
 30
0.0
  9
$UCSYDIR
 10
0.0
 20
1.0
 30
0.0
  9
$PUCSNAME
  2

  9
$PUCSORG
 10
0.0
 20
0.0
 30
0.0
  9
$PUCSXDIR
 10
1.0
 20
0.0
 30
0.0
  9
$PUCSYDIR
 10
0.0
 20
1.0
 30
0.0
  9
$USERI1
 70
     0
  9
$USERI2
 70
     3
  9
$USERI3
 70
    15
  9
$USERI4
 70
     0
  9
$USERI5
 70
     0
  9
$USERR1
 40
1.0
  9
$USERR2
 40
1.0
  9
$USERR3
 40
0.0
  9
$USERR4
 40
1.0
  9
$USERR5
 40
0.0
  9
$WORLDVIEW
 70
     1
  9
$SHADEDGE
 70
     3
  9
$SHADEDIF
 70
    70
  9
$TILEMODE
 70
     1
  9
$MAXACTVP
 70
    16
  9
$PINSBASE
 10
0.0
 20
0.0
 30
0.0
  9
$PLIMCHECK
 70
     0
  9
$PEXTMIN
 10
1.000000000000000E+20
 20
1.000000000000000E+20
 30
1.000000000000000E+20
  9
$PEXTMAX
 10
-1.000000000000000E+20
 20
-1.000000000000000E+20
 30
-1.000000000000000E+20
  9
$PLIMMIN
 10
0.0
 20
0.0
  9
$PLIMMAX
 10
12.0
 20
9.0
  9
$UNITMODE
 70
     0
  9
$VISRETAIN
 70
     0
  9
$PLINEGEN
 70
     0
  9
$PSLTSCALE
 70
     0
  9
$TREEDEPTH
 70
  3020
  9
$DWGCODEPAGE
  3
undefined
  0
ENDSEC
  0
SECTION
  2
TABLES
  0
TABLE
  2
VPORT
 70
     2
  0
VPORT
  2
*ACTIVE
 70
     0
 10
0.0
 20
0.0
 11
1.0
 21
1.0
 12
171.4758677022194
 22
190.0270048012338
 13
0.0
 23
0.0
 14
1.0
 24
1.0
 15
10.0
 25
10.0
 16
0.0
 26
0.0
 36
1.0
 17
0.0
 27
0.0
 37
0.0
 40
194.4957850432207
 41
1.275675675675675
 42
50.0
 43
0.0
 44
0.0
 50
0.0
 51
0.0
 71
     0
 72
 20000
 73
     1
 74
     0
 75
     0
 76
     0
 77
     0
 78
     0
  0
ENDTAB
  0
TABLE
  2
LTYPE
 70
     2
  0
LTYPE
  2
AUSGEZOGEN
 70
    64
  3
Solid line
 72
    65
 73
     0
 40
0.0
  0
LTYPE
  2
ITEM-STRICHPGR
 70
    64
  3
____ . ____ . ____ . ____ . ____ . ____ . ____
 72
    65
 73
     4
 40
15.0
 49
10.0
 49
-2.5
 49
0.0
 49
-2.5
  0
ENDTAB
  0
TABLE
  2
LAYER
 70
     5
  0
LAYER
  2
0
 70
     0
 62
     7
  6
AUSGEZOGEN
  0
LAYER
  2
ITEM_50
 70
    64
 62
     7
  6
AUSGEZOGEN
  0
LAYER
  2
ITEM_25
 70
    64
 62
     3
  6
AUSGEZOGEN
  0
LAYER
  2
ITEM_HILFE
 70
    64
 62
     3
  6
AUSGEZOGEN
  0
LAYER
  2
ITEM_STPG
 70
    64
 62
     4
  6
ITEM-STRICHPGR
  0
ENDTAB
  0
TABLE
  2
STYLE
 70
     1
  0
STYLE
  2
STANDARD
 70
     0
 40
0.0
 41
1.0
 50
0.0
 71
     0
 42
3.5
  3
iso
  4

  0
ENDTAB
  0
TABLE
  2
VIEW
 70
     0
  0
ENDTAB
  0
TABLE
  2
UCS
 70
     0
  0
ENDTAB
  0
TABLE
  2
APPID
 70
     1
  0
APPID
  2
ACAD
 70
    64
  0
ENDTAB
  0
TABLE
  2
DIMSTYLE
 70
     0
  0
ENDTAB
  0
ENDSEC
  0
SECTION
  2
BLOCKS
  0
ENDSEC
  0
SECTION
  2
ENTITIES
  0
LINE
  8
ITEM_HILFE
 10
89.46504320042444
 20
154.6106733718619
 30
0.0
 11
53.81929188939216
 21
154.6106733718602
 31
0.0
  0
LINE
  8
ITEM_HILFE
 10
89.46504320042421
 20
159.1106733718619
 30
0.0
 11
52.46504320045687
 21
159.1106733718602
 31
0.0
  0
ARC
  8
ITEM_HILFE
 10
89.46504320042339
 20
176.6106733718619
 30
0.0
 40
17.5
 50
270.0000000000108
 51
359.9999999999946
  0
ARC
  8
ITEM_HILFE
 10
89.46504320042339
 20
176.6106733718619
 30
0.0
 40
22.0
 50
270.0000000000026
 51
359.9999999999963
  0
LINE
  8
ITEM_HILFE
 10
106.9650432004233
 20
176.6106733718602
 30
0.0
 11
106.9650432004216
 21
212.6106733718652
 31
0.0
  0
LINE
  8
ITEM_HILFE
 10
111.4650432004233
 20
176.6106733718605
 30
0.0
 11
111.4650432004216
 21
212.6106733718654
 31
0.0
  0
LINE
  8
ITEM_HILFE
 10
175.4650432004217
 20
154.6106733718639
 30
0.0
 11
211.1107945114533
 21
154.6106733718639
 31
0.0
  0
LINE
  8
ITEM_HILFE
 10
153.4650432004217
 20
176.6106733718615
 30
0.0
 11
153.4650432004217
 21
212.6106733718664
 31
0.0
  0
LINE
  8
ITEM_HILFE
 10
175.4650432004217
 20
159.1106733718639
 30
0.0
 11
212.465043200389
 21
159.1106733718639
 31
0.0
  0
LINE
  8
ITEM_HILFE
 10
157.9650432004217
 20
176.6106733718615
 30
0.0
 11
157.9650432004217
 21
212.6106733718664
 31
0.0
  0
ARC
  8
ITEM_HILFE
 10
175.4650432004217
 20
176.6106733718639
 30
0.0
 40
22.0
 50
180.0000000000064
 51
270.0
  0
ARC
  8
ITEM_HILFE
 10
175.4650432004217
 20
176.6106733718639
 30
0.0
 40
17.5
 50
180.000000000008
 51
269.9999999999919
  0
LINE
  8
ITEM_STPG
 10
89.4650432004224
 20
198.8284690291044
 30
0.0
 11
89.46504320042478
 21
149.1856332762837
 31
0.0
  0
LINE
  8
ITEM_STPG
 10
175.4650432004217
 20
198.8284690291064
 30
0.0
 11
175.4650432004217
 21
149.1856332762858
 31
0.0
  0
POINT
  8
ITEM_HILFE
 10
152.4650432004217
 20
212.6106733718664
 30
0.0
  0
POINT
  8
ITEM_HILFE
 10
112.4650432004217
 20
212.6106733718664
 30
0.0
  0
POINT
  8
ITEM_HILFE
 10
132.4650432004217
 20
212.6106733718664
 30
0.0
  0
POINT
  8
ITEM_HILFE
 10
132.4650432004231
 20
152.6106733718664
 30
0.0
  0
POINT
  8
ITEM_HILFE
 10
52.46504320044974
 20
152.6106733718664
 30
0.0
  0
POINT
  8
ITEM_HILFE
 10
212.4650432003915
 20
152.6106733718664
 30
0.0
  0
POINT
  8
ITEM_HILFE
 10
212.4650432003915
 20
212.6106733718664
 30
0.0
  0
POINT
  8
ITEM_HILFE
 10
52.46504320044977
 20
212.6106733718664
 30
0.0
  0
ARC
  8
ITEM_50
 10
208.4650432003915
 20
208.6106733718664
 30
0.0
 40
4.0
 50
0.0
 51
90.0
  0
LINE
  8
ITEM_50
 10
56.46504320044977
 20
212.6106733718664
 30
0.0
 11
208.4650432003915
 21
212.6106733718664
 31
0.0
  0
ARC
  8
ITEM_50
 10
56.46504320044977
 20
208.6106733718664
 30
0.0
 40
4.0
 50
90.0
 51
180.0
  0
LINE
  8
ITEM_50
 10
52.46504320044974
 20
157.6106733718664
 30
0.0
 11
52.46504320044977
 21
208.6106733718664
 31
0.0
  0
ARC
  8
ITEM_50
 10
56.46504320044974
 20
157.6106733718664
 30
0.0
 40
4.0
 50
180.0
 51
270.0
  0
LINE
  8
ITEM_50
 10
208.4650432003915
 20
153.6106733718664
 30
0.0
 11
56.46504320044974
 21
153.6106733718664
 31
0.0
  0
ARC
  8
ITEM_50
 10
208.4650432003915
 20
157.6106733718664
 30
0.0
 40
4.0
 50
270.0
 51
0.0
  0
LINE
  8
ITEM_50
 10
212.4650432003915
 20
208.6106733718664
 30
0.0
 11
212.4650432003915
 21
157.6106733718664
 31
0.0
  0
CIRCLE
  8
ITEM_50
 10
112.5650432004217
 20
204.6106733718639
 30
0.0
 40
3.325
  0
ARC
  8
ITEM_25
 10
112.5650432004217
 20
204.6106733718639
 30
0.0
 40
3.999999999999986
 50
51.00000000000145
 51
339.0000000000001
  0
LINE
  8
ITEM_50
 10
112.5650432004226
 20
207.9356733720461
 30
0.0
 11
112.5650432004217
 21
201.2856733716809
 31
0.0
  0
LINE
  8
ITEM_50
 10
112.5650432004226
 20
183.9356733720461
 30
0.0
 11
112.5650432004217
 21
177.2856733716809
 31
0.0
  0
ARC
  8
ITEM_25
 10
112.5650432004217
 20
180.6106733718639
 30
0.0
 40
3.999999999999986
 50
51.00000000000145
 51
339.0000000000001
  0
CIRCLE
  8
ITEM_50
 10
112.5650432004217
 20
180.6106733718639
 30
0.0
 40
3.325
  0
CIRCLE
  8
ITEM_50
 10
152.3650432004217
 20
180.6106733718639
 30
0.0
 40
3.325
  0
ARC
  8
ITEM_25
 10
152.3650432004217
 20
180.6106733718639
 30
0.0
 40
3.999999999999986
 50
51.00000000000145
 51
339.0000000000001
  0
LINE
  8
ITEM_50
 10
152.3650432004226
 20
183.9356733720461
 30
0.0
 11
152.3650432004217
 21
177.2856733716809
 31
0.0
  0
LINE
  8
ITEM_STPG
 10
47.4190967016801
 20
176.6106733718633
 30
0.0
 11
215.9662991745419
 21
176.6106733718639
 31
0.0
  0
LINE
  8
ITEM_STPG
 10
132.4650432004216
 20
217.2372520098676
 30
0.0
 11
132.4650432004232
 21
149.1702225252966
 31
0.0
  0
CIRCLE
  8
ITEM_50
 10
175.4650432004217
 20
176.6106733718639
 30
0.0
 40
8.5
  0
CIRCLE
  8
ITEM_50
 10
175.4650432004217
 20
176.6106733718639
 30
0.0
 40
8.0
  0
CIRCLE
  8
ITEM_50
 10
72.46504320042171
 20
192.6106733718635
 30
0.0
 40
3.0
  0
CIRCLE
  8
ITEM_50
 10
72.46504320042171
 20
192.6106733718635
 30
0.0
 40
7.0
  0
CIRCLE
  8
ITEM_50
 10
192.4650432004208
 20
192.6106733718644
 30
0.0
 40
3.0
  0
CIRCLE
  8
ITEM_50
 10
192.4650432004208
 20
192.6106733718644
 30
0.0
 40
7.0
  0
LINE
  8
ITEM_50
 10
152.3650432004226
 20
207.9356733720461
 30
0.0
 11
152.3650432004217
 21
201.2856733716809
 31
0.0
  0
CIRCLE
  8
ITEM_50
 10
72.46504320042171
 20
192.6106733718639
 30
0.0
 40
8.5
  0
CIRCLE
  8
ITEM_50
 10
192.4650432004217
 20
192.6106733718639
 30
0.0
 40
8.5
  0
ARC
  8
ITEM_25
 10
202.4650432004217
 20
164.6106733718639
 30
0.0
 40
1.99999999999995
 50
51.00000000000863
 51
339.0000000000017
  0
CIRCLE
  8
ITEM_50
 10
202.4650432004217
 20
164.6106733718639
 30
0.0
 40
1.62
  0
ARC
  8
ITEM_25
 10
152.3650432004217
 20
204.6106733718639
 30
0.0
 40
3.999999999999986
 50
51.00000000000145
 51
339.0000000000001
  0
CIRCLE
  8
ITEM_50
 10
152.3650432004217
 20
204.6106733718639
 30
0.0
 40
3.325
  0
POINT
  8
ITEM_HILFE
 10
267.4650432003946
 20
152.6106733718608
 30
0.0
  0
POINT
  8
ITEM_HILFE
 10
247.4650432003946
 20
152.6106733718608
 30
0.0
  0
POINT
  8
ITEM_HILFE
 10
227.4650432003946
 20
152.6106733718608
 30
0.0
  0
POINT
  8
ITEM_HILFE
 10
247.4650432003946
 20
212.6106733718608
 30
0.0
  0
POINT
  8
ITEM_HILFE
 10
267.4650432003946
 20
212.6106733718608
 30
0.0
  0
POINT
  8
ITEM_HILFE
 10
227.4650432003946
 20
212.6106733718608
 30
0.0
  0
LINE
  8
ITEM_50
 10
251.4650432003946
 20
212.6106733718608
 30
0.0
 11
263.4650432003946
 21
212.6106733718608
 31
0.0
  0
LINE
  8
ITEM_STPG
 10
247.4650432003946
 20
215.4501976759452
 30
0.0
 11
247.4650432003946
 21
150.3527676186495
 31
0.0
  0
LINE
  8
ITEM_STPG
 10
224.3240520828574
 20
176.6106733718608
 30
0.0
 11
270.6397882214433
 21
176.6106733718608
 31
0.0
  0
LINE
  8
ITEM_50
 10
260.4650432003946
 20
160.6106733718608
 30
0.0
 11
234.4650432003946
 21
160.6106733718608
 31
0.0
  0
LINE
  8
ITEM_50
 10
234.4650432003946
 20
161.9106733718608
 30
0.0
 11
260.4650432003946
 21
161.9106733718608
 31
0.0
  0
LINE
  8
ITEM_50
 10
234.4650432003946
 20
153.6106733718608
 30
0.0
 11
234.4650432003946
 21
161.9106733718608
 31
0.0
  0
LINE
  8
ITEM_50
 10
260.4650432003946
 20
153.6106733718608
 30
0.0
 11
260.4650432003946
 21
161.9106733718608
 31
0.0
  0
ARC
  8
ITEM_50
 10
256.4650432003946
 20
201.3106733718608
 30
0.0
 40
1.0
 50
270.0
 51
359.9999999999998
  0
ARC
  8
ITEM_50
 10
238.4650432003946
 20
201.3106733718608
 30
0.0
 40
1.0
 50
180.0000000000001
 51
270.0
  0
LINE
  8
ITEM_50
 10
238.4650432003946
 20
200.3106733718608
 30
0.0
 11
256.4650432003946
 21
200.3106733718608
 31
0.0
  0
LINE
  8
ITEM_50
 10
243.4650432003946
 20
212.6106733718608
 30
0.0
 11
243.4650432003946
 21
209.1106733718608
 31
0.0
  0
LINE
  8
ITEM_50
 10
242.4650432003946
 20
208.1106733718608
 30
0.0
 11
238.4650432003946
 21
208.1106733718608
 31
0.0
  0
LINE
  8
ITEM_50
 10
237.4650432003946
 20
207.1106733718607
 30
0.0
 11
237.4650432003946
 21
201.3106733718608
 31
0.0
  0
ARC
  8
ITEM_50
 10
242.4650432003946
 20
209.1106733718608
 30
0.0
 40
1.0
 50
270.0
 51
0.0
  0
ARC
  8
ITEM_50
 10
238.4650432003946
 20
207.1106733718608
 30
0.0
 40
1.0
 50
90.0
 51
180.0000000000001
  0
ARC
  8
ITEM_50
 10
256.4650432003946
 20
207.1106733718608
 30
0.0
 40
1.0
 50
359.9999999999998
 51
90.0
  0
ARC
  8
ITEM_50
 10
252.4650432003946
 20
209.1106733718608
 30
0.0
 40
1.0
 50
180.0
 51
270.0
  0
LINE
  8
ITEM_50
 10
257.4650432003946
 20
207.1106733718607
 30
0.0
 11
257.4650432003946
 21
201.3106733718608
 31
0.0
  0
LINE
  8
ITEM_50
 10
252.4650432003946
 20
208.1106733718608
 30
0.0
 11
256.4650432003946
 21
208.1106733718608
 31
0.0
  0
LINE
  8
ITEM_50
 10
251.4650432003946
 20
212.6106733718608
 30
0.0
 11
251.4650432003946
 21
209.1106733718608
 31
0.0
  0
ARC
  8
ITEM_50
 10
231.4650432003946
 20
208.6106733718608
 30
0.0
 40
4.0
 50
90.0
 51
180.0
  0
LINE
  8
ITEM_50
 10
227.4650432003946
 20
157.6106733718608
 30
0.0
 11
227.4650432003946
 21
208.6106733718608
 31
0.0
  0
ARC
  8
ITEM_50
 10
231.4650432003946
 20
157.6106733718608
 30
0.0
 40
4.0
 50
180.0
 51
270.0
  0
LINE
  8
ITEM_50
 10
263.4650432003946
 20
153.6106733718608
 30
0.0
 11
231.4650432003946
 21
153.6106733718608
 31
0.0
  0
ARC
  8
ITEM_50
 10
263.4650432003946
 20
157.6106733718608
 30
0.0
 40
4.0
 50
270.0
 51
0.0
  0
LINE
  8
ITEM_50
 10
267.4650432003946
 20
208.6106733718608
 30
0.0
 11
267.4650432003946
 21
157.6106733718608
 31
0.0
  0
ARC
  8
ITEM_50
 10
263.4650432003946
 20
208.6106733718608
 30
0.0
 40
4.0
 50
0.0
 51
90.0
  0
LINE
  8
ITEM_50
 10
231.4650432003946
 20
212.6106733718608
 30
0.0
 11
243.4650432003946
 21
212.6106733718608
 31
0.0
  0
POINT
  8
ITEM_HILFE
 10
132.4650432004192
 20
98.61067337186331
 30
0.0
  0
POINT
  8
ITEM_HILFE
 10
132.4650432004192
 20
138.6106733718632
 30
0.0
  0
POINT
  8
ITEM_HILFE
 10
112.4650432004192
 20
118.6106733718633
 30
0.0
  0
POINT
  8
ITEM_HILFE
 10
152.4650432004192
 20
118.6106733718633
 30
0.0
  0
POINT
  8
ITEM_HILFE
 10
132.4650432004192
 20
118.6106733718633
 30
0.0
  0
POINT
  8
ITEM_HILFE
 10
52.46504320044834
 20
98.61067337186331
 30
0.0
  0
POINT
  8
ITEM_HILFE
 10
52.46504320044834
 20
138.6106733718632
 30
0.0
  0
POINT
  8
ITEM_HILFE
 10
212.4650432003901
 20
98.61067337186331
 30
0.0
  0
POINT
  8
ITEM_HILFE
 10
212.4650432003901
 20
138.6106733718632
 30
0.0
  0
POINT
  8
ITEM_HILFE
 10
212.4650432003901
 20
118.6106733718635
 30
0.0
  0
POINT
  8
ITEM_HILFE
 10
52.46504320044834
 20
118.610673371863
 30
0.0
  0
ARC
  8
ITEM_50
 10
208.4650432003901
 20
134.6106733718632
 30
0.0
 40
4.0
 50
0.0
 51
90.0
  0
LINE
  8
ITEM_50
 10
56.46504320044834
 20
138.6106733718632
 30
0.0
 11
208.4650432003901
 21
138.6106733718632
 31
0.0
  0
ARC
  8
ITEM_50
 10
56.46504320044834
 20
134.6106733718632
 30
0.0
 40
4.0
 50
90.0
 51
180.0
  0
LINE
  8
ITEM_50
 10
52.46504320044834
 20
102.6106733718633
 30
0.0
 11
52.46504320044834
 21
134.6106733718632
 31
0.0
  0
ARC
  8
ITEM_50
 10
56.46504320044834
 20
102.6106733718633
 30
0.0
 40
4.0
 50
180.0
 51
270.0
  0
LINE
  8
ITEM_50
 10
208.4650432003901
 20
98.61067337186331
 30
0.0
 11
56.46504320044834
 21
98.61067337186331
 31
0.0
  0
ARC
  8
ITEM_50
 10
208.4650432003901
 20
102.6106733718633
 30
0.0
 40
4.0
 50
270.0
 51
0.0
  0
LINE
  8
ITEM_50
 10
212.4650432003901
 20
134.6106733718632
 30
0.0
 11
212.4650432003901
 21
102.6106733718633
 31
0.0
  0
LINE
  8
ITEM_STPG
 10
132.4650432004192
 20
143.4774018615642
 30
0.0
 11
132.4650432004192
 21
92.7791122796235
 31
0.0
  0
LINE
  8
ITEM_STPG
 10
47.41909670167868
 20
118.610673371863
 30
0.0
 11
215.9662991745405
 21
118.6106733718635
 31
0.0
  0
ARC
  8
ITEM_25
 10
132.4650432004192
 20
118.6106733718633
 30
0.0
 40
3.999999999999986
 50
51.00000000000145
 51
339.0000000000001
  0
CIRCLE
  8
ITEM_50
 10
120.4650432004192
 20
118.6106733718633
 30
0.0
 40
3.5
  0
CIRCLE
  8
ITEM_50
 10
62.46504320041924
 20
118.6106733718633
 30
0.0
 40
3.5
  0
CIRCLE
  8
ITEM_50
 10
202.4650432004192
 20
118.6106733718633
 30
0.0
 40
3.5
  0
CIRCLE
  8
ITEM_50
 10
144.4650432004192
 20
118.6106733718633
 30
0.0
 40
3.5
  0
CIRCLE
  8
ITEM_50
 10
132.4650432004192
 20
118.6106733718633
 30
0.0
 40
3.5
  0
LINE
  8
ITEM_50
 10
159.3650432004178
 20
114.6106733718633
 30
0.0
 11
212.4650432003901
 21
114.6106733718633
 31
0.0
  0
LINE
  8
ITEM_50
 10
112.5650432004206
 20
114.6106733718633
 30
0.0
 11
152.3650432004178
 21
114.6106733718633
 31
0.0
  0
LINE
  8
ITEM_50
 10
52.46504320044834
 20
114.6106733718633
 30
0.0
 11
105.5650432004206
 21
114.6106733718633
 31
0.0
  0
LINE
  8
ITEM_50
 10
105.5650432004206
 20
122.6106733718633
 30
0.0
 11
52.46504320044834
 21
122.6106733718633
 31
0.0
  0
LINE
  8
ITEM_50
 10
152.3650432004178
 20
122.6106733718633
 30
0.0
 11
112.5650432004206
 21
122.6106733718633
 31
0.0
  0
LINE
  8
ITEM_50
 10
212.4650432003901
 20
122.6106733718633
 30
0.0
 11
159.3650432004178
 21
122.6106733718633
 31
0.0
  0
LINE
  8
ITEM_50
 10
105.5650432004206
 20
131.6106733718632
 30
0.0
 11
105.5650432004206
 21
105.6106733718633
 31
0.0
  0
LINE
  8
ITEM_50
 10
105.5650432004206
 20
105.6106733718633
 30
0.0
 11
112.5650432004206
 21
105.6106733718633
 31
0.0
  0
LINE
  8
ITEM_50
 10
112.5650432004206
 20
105.6106733718633
 30
0.0
 11
112.5650432004206
 21
131.6106733718632
 31
0.0
  0
LINE
  8
ITEM_50
 10
112.5650432004206
 20
131.6106733718632
 30
0.0
 11
105.5650432004206
 21
131.6106733718632
 31
0.0
  0
LINE
  8
ITEM_50
 10
159.3650432004178
 20
131.6106733718632
 30
0.0
 11
159.3650432004178
 21
105.6106733718632
 31
0.0
  0
LINE
  8
ITEM_50
 10
159.3650432004178
 20
105.6106733718632
 30
0.0
 11
152.3650432004178
 21
105.6106733718632
 31
0.0
  0
LINE
  8
ITEM_50
 10
152.3650432004178
 20
105.6106733718632
 30
0.0
 11
152.3650432004178
 21
131.6106733718632
 31
0.0
  0
LINE
  8
ITEM_50
 10
152.3650432004178
 20
131.6106733718632
 30
0.0
 11
159.3650432004178
 21
131.6106733718632
 31
0.0
  0
POINT
  8
ITEM_HILFE
 10
132.4650432004193
 20
247.6106733718577
 30
0.0
  0
POINT
  8
ITEM_HILFE
 10
212.4650432003901
 20
247.6106733718579
 30
0.0
  0
POINT
  8
ITEM_HILFE
 10
52.46504320044837
 20
247.6106733718574
 30
0.0
  0
POINT
  8
ITEM_HILFE
 10
52.4650432004484
 20
227.6106733718577
 30
0.0
  0
POINT
  8
ITEM_HILFE
 10
212.4650432003901
 20
227.6106733718577
 30
0.0
  0
POINT
  8
ITEM_HILFE
 10
212.4650432003901
 20
267.6106733718577
 30
0.0
  0
POINT
  8
ITEM_HILFE
 10
52.4650432004484
 20
267.6106733718577
 30
0.0
  0
ARC
  8
ITEM_50
 10
208.4650432003901
 20
263.6106733718577
 30
0.0
 40
4.0
 50
0.0
 51
90.0
  0
LINE
  8
ITEM_50
 10
56.4650432004484
 20
267.6106733718577
 30
0.0
 11
208.4650432003901
 21
267.6106733718577
 31
0.0
  0
ARC
  8
ITEM_50
 10
56.4650432004484
 20
263.6106733718577
 30
0.0
 40
4.0
 50
90.0
 51
180.0
  0
LINE
  8
ITEM_50
 10
52.4650432004484
 20
231.6106733718577
 30
0.0
 11
52.4650432004484
 21
263.6106733718577
 31
0.0
  0
ARC
  8
ITEM_50
 10
56.4650432004484
 20
231.6106733718577
 30
0.0
 40
4.0
 50
180.0
 51
270.0
  0
LINE
  8
ITEM_50
 10
208.4650432003901
 20
227.6106733718577
 30
0.0
 11
56.4650432004484
 21
227.6106733718577
 31
0.0
  0
ARC
  8
ITEM_50
 10
208.4650432003901
 20
231.6106733718577
 30
0.0
 40
4.0
 50
270.0
 51
0.0
  0
LINE
  8
ITEM_50
 10
212.4650432003901
 20
263.6106733718577
 30
0.0
 11
212.4650432003901
 21
231.6106733718577
 31
0.0
  0
LINE
  8
ITEM_50
 10
52.4650432004484
 20
260.6106733718577
 30
0.0
 11
94.46504320044843
 21
260.6106733718577
 31
0.0
  0
LINE
  8
ITEM_50
 10
94.46504320044843
 20
260.6106733718577
 30
0.0
 11
94.46504320044843
 21
234.6106733718577
 31
0.0
  0
LINE
  8
ITEM_50
 10
94.46504320044843
 20
234.6106733718577
 30
0.0
 11
52.4650432004484
 21
234.6106733718577
 31
0.0
  0
LINE
  8
ITEM_50
 10
57.4650432004484
 20
260.6106733718577
 30
0.0
 11
57.4650432004484
 21
234.6106733718577
 31
0.0
  0
LINE
  8
ITEM_50
 10
81.21883194918052
 20
260.6106733718577
 30
0.0
 11
81.21883194918052
 21
234.6106733718577
 31
0.0
  0
LINE
  8
ITEM_STPG
 10
132.4650432004193
 20
272.4774018615586
 30
0.0
 11
132.4650432004193
 21
221.7791122796179
 31
0.0
  0
LINE
  8
ITEM_STPG
 10
47.41909670167871
 20
247.6106733718574
 30
0.0
 11
215.9662991745405
 21
247.610673371858
 31
0.0
  0
ARC
  8
ITEM_25
 10
132.4650432004193
 20
247.6106733718577
 30
0.0
 40
3.999999999999986
 50
51.00000000000145
 51
339.0000000000001
  0
LINE
  8
ITEM_50
 10
183.7112544516581
 20
260.6106733718577
 30
0.0
 11
183.7112544516581
 21
234.6106733718577
 31
0.0
  0
CIRCLE
  8
ITEM_50
 10
132.4650432004193
 20
247.6106733718577
 30
0.0
 40
3.5
  0
CIRCLE
  8
ITEM_50
 10
144.4650432004193
 20
247.6106733718577
 30
0.0
 40
3.5
  0
CIRCLE
  8
ITEM_50
 10
202.4650432004193
 20
247.6106733718577
 30
0.0
 40
3.5
  0
CIRCLE
  8
ITEM_50
 10
62.4650432004193
 20
247.6106733718577
 30
0.0
 40
3.5
  0
CIRCLE
  8
ITEM_50
 10
120.4650432004193
 20
247.6106733718577
 30
0.0
 40
3.5
  0
LINE
  8
ITEM_50
 10
207.4650432003901
 20
260.6106733718577
 30
0.0
 11
207.4650432003901
 21
234.6106733718577
 31
0.0
  0
LINE
  8
ITEM_50
 10
170.4650432003901
 20
234.6106733718577
 30
0.0
 11
212.4650432003901
 21
234.6106733718577
 31
0.0
  0
LINE
  8
ITEM_50
 10
170.4650432003901
 20
260.6106733718577
 30
0.0
 11
170.4650432003901
 21
234.6106733718577
 31
0.0
  0
LINE
  8
ITEM_50
 10
212.4650432003901
 20
260.6106733718577
 30
0.0
 11
170.4650432003901
 21
260.6106733718577
 31
0.0
  0
LINE
  8
ITEM_50
 10
75.35179454636985
 20
192.6106733718635
 30
0.0
 11
73.90841887339578
 21
195.1106733718635
 31
0.0
  0
LINE
  8
ITEM_50
 10
73.90841887339578
 20
195.1106733718635
 30
0.0
 11
71.02166752744764
 21
195.1106733718635
 31
0.0
  0
LINE
  8
ITEM_50
 10
71.02166752744764
 20
195.1106733718635
 30
0.0
 11
69.57829185447357
 21
192.6106733718635
 31
0.0
  0
LINE
  8
ITEM_50
 10
69.57829185447357
 20
192.6106733718635
 30
0.0
 11
71.02166752744764
 21
190.1106733718635
 31
0.0
  0
LINE
  8
ITEM_50
 10
71.02166752744764
 20
190.1106733718635
 30
0.0
 11
73.90841887339578
 21
190.1106733718635
 31
0.0
  0
LINE
  8
ITEM_50
 10
73.90841887339578
 20
190.1106733718635
 30
0.0
 11
75.35179454636985
 21
192.6106733718635
 31
0.0
  0
LINE
  8
ITEM_50
 10
178.3517945463698
 20
176.6106733718639
 30
0.0
 11
176.9084188733957
 21
179.1106733718639
 31
0.0
  0
LINE
  8
ITEM_50
 10
176.9084188733957
 20
179.1106733718639
 30
0.0
 11
174.0216675274476
 21
179.1106733718639
 31
0.0
  0
LINE
  8
ITEM_50
 10
174.0216675274476
 20
179.1106733718639
 30
0.0
 11
172.5782918544735
 21
176.6106733718639
 31
0.0
  0
LINE
  8
ITEM_50
 10
172.5782918544735
 20
176.6106733718639
 30
0.0
 11
174.0216675274476
 21
174.1106733718639
 31
0.0
  0
LINE
  8
ITEM_50
 10
174.0216675274476
 20
174.1106733718639
 30
0.0
 11
176.9084188733957
 21
174.1106733718639
 31
0.0
  0
LINE
  8
ITEM_50
 10
176.9084188733957
 20
174.1106733718639
 30
0.0
 11
178.3517945463698
 21
176.6106733718639
 31
0.0
  0
LINE
  8
ITEM_50
 10
195.3517945463689
 20
192.6106733718644
 30
0.0
 11
193.9084188733948
 21
195.1106733718644
 31
0.0
  0
LINE
  8
ITEM_50
 10
193.9084188733948
 20
195.1106733718644
 30
0.0
 11
191.0216675274467
 21
195.1106733718644
 31
0.0
  0
LINE
  8
ITEM_50
 10
191.0216675274467
 20
195.1106733718644
 30
0.0
 11
189.5782918544726
 21
192.6106733718644
 31
0.0
  0
LINE
  8
ITEM_50
 10
189.5782918544726
 20
192.6106733718644
 30
0.0
 11
191.0216675274467
 21
190.1106733718644
 31
0.0
  0
LINE
  8
ITEM_50
 10
191.0216675274467
 20
190.1106733718644
 30
0.0
 11
193.9084188733948
 21
190.1106733718644
 31
0.0
  0
LINE
  8
ITEM_50
 10
193.9084188733948
 20
190.1106733718644
 30
0.0
 11
195.3517945463689
 21
192.6106733718644
 31
0.0
  0
ENDSEC
  0
EOF
